ISO-10303-21;
HEADER;
FILE_DESCRIPTION (( 'STEP AP214' ),
    '1' );
FILE_NAME ('am-3948-100 500H x 100IN Spacer.STEP',
    '2022-09-22T14:39:04',
    ( '' ),
    ( '' ),
    'SwSTEP 2.0',
    'SolidWorks 2022',
    '' );
FILE_SCHEMA (( 'AUTOMOTIVE_DESIGN' ));
ENDSEC;

DATA;
#1 = UNCERTAINTY_MEASURE_WITH_UNIT (LENGTH_MEASURE( 1.000000000000000082E-05 ), #99, 'distance_accuracy_value', 'NONE');
#2 = CARTESIAN_POINT ( 'NONE',  ( 0.1443375672974063217, 0.2500000000000000555, 0.1000000000000000056 ) ) ;
#3 = FACE_OUTER_BOUND ( 'NONE', #264, .T. ) ;
#4 = CARTESIAN_POINT ( 'NONE',  ( 0.1443375672974063217, 0.2500000000000000555, 0.000000000000000000 ) ) ;
#5 = FACE_OUTER_BOUND ( 'NONE', #273, .T. ) ;
#6 = AXIS2_PLACEMENT_3D ( 'NONE', #277, #36, #148 ) ;
#7 = LINE ( 'NONE', #9, #127 ) ;
#8 = ORIENTED_EDGE ( 'NONE', *, *, #231, .T. ) ;
#9 = CARTESIAN_POINT ( 'NONE',  ( -0.1443375672974064050, 0.2500000000000000555, 0.1000000000000000056 ) ) ;
#10 = ORIENTED_EDGE ( 'NONE', *, *, #334, .T. ) ;
#11 = UNCERTAINTY_MEASURE_WITH_UNIT (LENGTH_MEASURE( 1.000000000000000082E-05 ), #105, 'distance_accuracy_value', 'NONE');
#12 = SURFACE_STYLE_USAGE ( .BOTH. , #153 ) ;
#13 =( LENGTH_UNIT ( ) NAMED_UNIT ( * ) SI_UNIT ( $, .METRE. ) );
#14 = ADVANCED_FACE ( 'NONE', ( #297 ), #324, .T. ) ;
#15 = ORIENTED_EDGE ( 'NONE', *, *, #147, .T. ) ;
#16 = CARTESIAN_POINT ( 'NONE',  ( 0.1443375672974065438, -0.2499999999999999167, 0.1000000000000000056 ) ) ;
#17 = EDGE_LOOP ( 'NONE', ( #239, #287, #326, #321 ) ) ;
#18 = ORIENTED_EDGE ( 'NONE', *, *, #200, .T. ) ;
#19 = EDGE_CURVE ( 'NONE', #43, #97, #29, .T. ) ;
#20 = VECTOR ( 'NONE', #65, 39.37007874015748143 ) ;
#21 = APPLICATION_PROTOCOL_DEFINITION ( 'draft international standard', 'automotive_design', 1998, #73 ) ;
#22 = VERTEX_POINT ( 'NONE', #214 ) ;
#23 =( LENGTH_UNIT ( ) NAMED_UNIT ( * ) SI_UNIT ( $, .METRE. ) );
#24 = LINE ( 'NONE', #213, #166 ) ;
#25 = PRESENTATION_STYLE_ASSIGNMENT (( #295 ) ) ;
#26 = DIRECTION ( 'NONE',  ( -0.8660254037844385966, -0.5000000000000003331, 0.000000000000000000 ) ) ;
#27 = AXIS2_PLACEMENT_3D ( 'NONE', #64, #302, #171 ) ;
#28 =( NAMED_UNIT ( * ) SI_UNIT ( $, .STERADIAN. ) SOLID_ANGLE_UNIT ( ) );
#29 = LINE ( 'NONE', #81, #193 ) ;
#30 = DIRECTION ( 'NONE',  ( 1.000000000000000000, 1.182924880895401264E-16, 0.000000000000000000 ) ) ;
#31 = CARTESIAN_POINT ( 'NONE',  ( 0.3937007874015748254, 4.821444091131312140E-17, 0.1000000000000000056 ) ) ;
#32 = EDGE_CURVE ( 'NONE', #178, #272, #24, .T. ) ;
#33 = VECTOR ( 'NONE', #183, 39.37007874015749564 ) ;
#34 = DIRECTION ( 'NONE',  ( -1.000000000000000000, 0.000000000000000000, 0.000000000000000000 ) ) ;
#35 = DIRECTION ( 'NONE',  ( -0.5000000000000002220, 0.8660254037844384856, 0.000000000000000000 ) ) ;
#36 = DIRECTION ( 'NONE',  ( 0.000000000000000000, 0.000000000000000000, 1.000000000000000000 ) ) ;
#37 = FILL_AREA_STYLE_COLOUR ( '', #224 ) ;
#38 = VECTOR ( 'NONE', #247, 39.37007874015748143 ) ;
#39 = DIRECTION ( 'NONE',  ( -0.000000000000000000, -0.000000000000000000, -1.000000000000000000 ) ) ;
#40 = CARTESIAN_POINT ( 'NONE',  ( 0.2886751345948129210, -3.392667169346791278E-17, 0.1000000000000000056 ) ) ;
#41 = ORIENTED_EDGE ( 'NONE', *, *, #147, .F. ) ;
#42 = DIMENSIONAL_EXPONENTS ( 1.000000000000000000, 0.000000000000000000, 0.000000000000000000, 0.000000000000000000, 0.000000000000000000, 0.000000000000000000, 0.000000000000000000 ) ;
#43 = VERTEX_POINT ( 'NONE', #347 ) ;
#44 =( GEOMETRIC_REPRESENTATION_CONTEXT ( 3 ) GLOBAL_UNCERTAINTY_ASSIGNED_CONTEXT ( ( #11 ) ) GLOBAL_UNIT_ASSIGNED_CONTEXT ( ( #105, #47, #235 ) ) REPRESENTATION_CONTEXT ( 'NONE', 'WORKASPACE' ) );
#45 = FACE_OUTER_BOUND ( 'NONE', #350, .T. ) ;
#46 = ORIENTED_EDGE ( 'NONE', *, *, #288, .T. ) ;
#47 =( NAMED_UNIT ( * ) PLANE_ANGLE_UNIT ( ) SI_UNIT ( $, .RADIAN. ) );
#48 = VERTEX_POINT ( 'NONE', #143 ) ;
#49 = SHAPE_DEFINITION_REPRESENTATION ( #278, #292 ) ;
#50 = CARTESIAN_POINT ( 'NONE',  ( -0.2886751345948128655, 6.809993419335529712E-17, 0.1000000000000000056 ) ) ;
#51 = VECTOR ( 'NONE', #282, 39.37007874015748854 ) ;
#52 = FACE_OUTER_BOUND ( 'NONE', #17, .T. ) ;
#53 =( LENGTH_UNIT ( ) NAMED_UNIT ( * ) SI_UNIT ( $, .METRE. ) );
#54 = VERTEX_POINT ( 'NONE', #110 ) ;
#55 = VERTEX_POINT ( 'NONE', #192 ) ;
#56 =( GEOMETRIC_REPRESENTATION_CONTEXT ( 3 ) GLOBAL_UNCERTAINTY_ASSIGNED_CONTEXT ( ( #1 ) ) GLOBAL_UNIT_ASSIGNED_CONTEXT ( ( #99, #315, #202 ) ) REPRESENTATION_CONTEXT ( 'NONE', 'WORKASPACE' ) );
#57 = AXIS2_PLACEMENT_3D ( 'NONE', #80, #108, #325 ) ;
#58 = DIRECTION ( 'NONE',  ( 0.5000000000000000000, 0.8660254037844385966, 0.000000000000000000 ) ) ;
#59 = CYLINDRICAL_SURFACE ( 'NONE', #86, 0.3937007874015748254 ) ;
#60 = DIRECTION ( 'NONE',  ( -0.000000000000000000, -0.000000000000000000, -1.000000000000000000 ) ) ;
#61 = VECTOR ( 'NONE', #115, 39.37007874015748854 ) ;
#62 = CARTESIAN_POINT ( 'NONE',  ( 0.1443375672974063217, 0.2500000000000000555, 0.1000000000000000056 ) ) ;
#63 = PRODUCT_RELATED_PRODUCT_CATEGORY ( 'part', '', ( #199 ) ) ;
#64 = CARTESIAN_POINT ( 'NONE',  ( 0.000000000000000000, 0.000000000000000000, 0.000000000000000000 ) ) ;
#65 = DIRECTION ( 'NONE',  ( -0.000000000000000000, -0.000000000000000000, -1.000000000000000000 ) ) ;
#66 = VECTOR ( 'NONE', #253, 39.37007874015749564 ) ;
#67 = CARTESIAN_POINT ( 'NONE',  ( 0.1443375672974063217, 0.2500000000000000555, 0.1000000000000000056 ) ) ;
#68 = AXIS2_PLACEMENT_3D ( 'NONE', #173, #121, #230 ) ;
#69 = EDGE_LOOP ( 'NONE', ( #75, #316, #137, #237 ) ) ;
#70 = DIRECTION ( 'NONE',  ( -0.000000000000000000, -0.000000000000000000, -1.000000000000000000 ) ) ;
#71 = ORIENTED_EDGE ( 'NONE', *, *, #242, .F. ) ;
#72 = LINE ( 'NONE', #124, #255 ) ;
#73 = APPLICATION_CONTEXT ( 'automotive_design' ) ;
#74 = ADVANCED_FACE ( 'NONE', ( #163 ), #299, .T. ) ;
#75 = ORIENTED_EDGE ( 'NONE', *, *, #322, .F. ) ;
#76 = DIRECTION ( 'NONE',  ( 1.000000000000000000, 0.000000000000000000, -0.000000000000000000 ) ) ;
#77 = ORIENTED_EDGE ( 'NONE', *, *, #182, .T. ) ;
#78 = LINE ( 'NONE', #50, #175 ) ;
#79 = STYLED_ITEM ( 'NONE', ( #339 ), #250 ) ;
#80 = CARTESIAN_POINT ( 'NONE',  ( 0.000000000000000000, 0.000000000000000000, 0.000000000000000000 ) ) ;
#81 = CARTESIAN_POINT ( 'NONE',  ( -0.2886751345948128655, 6.809993419335529712E-17, 0.1000000000000000056 ) ) ;
#82 = EDGE_CURVE ( 'NONE', #48, #97, #267, .T. ) ;
#83 = VERTEX_POINT ( 'NONE', #185 ) ;
#84 = DIRECTION ( 'NONE',  ( -0.000000000000000000, -0.000000000000000000, -1.000000000000000000 ) ) ;
#85 = AXIS2_PLACEMENT_3D ( 'NONE', #159, #26, #140 ) ;
#86 = AXIS2_PLACEMENT_3D ( 'NONE', #198, #275, #274 ) ;
#87 = EDGE_CURVE ( 'NONE', #43, #349, #78, .T. ) ;
#88 = DIRECTION ( 'NONE',  ( -0.000000000000000000, -0.000000000000000000, -1.000000000000000000 ) ) ;
#89 = CARTESIAN_POINT ( 'NONE',  ( 0.1443375672974065438, -0.2499999999999999167, 0.000000000000000000 ) ) ;
#90 = DIRECTION ( 'NONE',  ( -0.4999999999999998890, -0.8660254037844385966, 0.000000000000000000 ) ) ;
#91 = CARTESIAN_POINT ( 'NONE',  ( 0.000000000000000000, 0.000000000000000000, 0.1000000000000000056 ) ) ;
#92 = ADVANCED_FACE ( 'NONE', ( #52 ), #139, .T. ) ;
#93 = DIRECTION ( 'NONE',  ( 0.8660254037844387076, -0.5000000000000001110, 0.000000000000000000 ) ) ;
#94 = DIRECTION ( 'NONE',  ( 0.8660254037844385966, 0.5000000000000003331, -0.000000000000000000 ) ) ;
#95 = FACE_OUTER_BOUND ( 'NONE', #106, .T. ) ;
#96 = VECTOR ( 'NONE', #233, 39.37007874015748854 ) ;
#97 = VERTEX_POINT ( 'NONE', #331 ) ;
#98 = CARTESIAN_POINT ( 'NONE',  ( 0.000000000000000000, 0.000000000000000000, 0.000000000000000000 ) ) ;
#99 =( CONVERSION_BASED_UNIT ( 'INCH', #313 ) LENGTH_UNIT ( ) NAMED_UNIT ( #252 ) );
#100 = EDGE_LOOP ( 'NONE', ( #188, #206, #8, #109 ) ) ;
#101 = LINE ( 'NONE', #314, #20 ) ;
#102 = ORIENTED_EDGE ( 'NONE', *, *, #32, .F. ) ;
#103 = ORIENTED_EDGE ( 'NONE', *, *, #164, .F. ) ;
#104 = DIRECTION ( 'NONE',  ( 0.5000000000000002220, -0.8660254037844384856, 0.000000000000000000 ) ) ;
#105 =( CONVERSION_BASED_UNIT ( 'INCH', #271 ) LENGTH_UNIT ( ) NAMED_UNIT ( #279 ) );
#106 = EDGE_LOOP ( 'NONE', ( #285, #71 ) ) ;
#107 =( GEOMETRIC_REPRESENTATION_CONTEXT ( 3 ) GLOBAL_UNCERTAINTY_ASSIGNED_CONTEXT ( ( #118 ) ) GLOBAL_UNIT_ASSIGNED_CONTEXT ( ( #133, #142, #28 ) ) REPRESENTATION_CONTEXT ( 'NONE', 'WORKASPACE' ) );
#108 = DIRECTION ( 'NONE',  ( 0.000000000000000000, 0.000000000000000000, 1.000000000000000000 ) ) ;
#109 = ORIENTED_EDGE ( 'NONE', *, *, #32, .T. ) ;
#110 = CARTESIAN_POINT ( 'NONE',  ( -0.3937007874015748254, 0.000000000000000000, 0.1000000000000000056 ) ) ;
#111 = CARTESIAN_POINT ( 'NONE',  ( -0.1443375672974064050, 0.2500000000000000555, 0.1000000000000000056 ) ) ;
#112 = AXIS2_PLACEMENT_3D ( 'NONE', #91, #116, #300 ) ;
#113 = STYLED_ITEM ( 'NONE', ( #25 ), #292 ) ;
#114 = DIRECTION ( 'NONE',  ( 0.000000000000000000, -0.000000000000000000, -1.000000000000000000 ) ) ;
#115 = DIRECTION ( 'NONE',  ( 0.4999999999999998890, 0.8660254037844385966, 0.000000000000000000 ) ) ;
#116 = DIRECTION ( 'NONE',  ( 0.000000000000000000, 0.000000000000000000, 1.000000000000000000 ) ) ;
#117 = EDGE_CURVE ( 'NONE', #97, #327, #329, .T. ) ;
#118 = UNCERTAINTY_MEASURE_WITH_UNIT (LENGTH_MEASURE( 1.000000000000000082E-05 ), #133, 'distance_accuracy_value', 'NONE');
#119 = CIRCLE ( 'NONE', #197, 0.3937007874015748254 ) ;
#120 = CARTESIAN_POINT ( 'NONE',  ( 0.2886751345948129210, -3.392667169346791278E-17, 0.000000000000000000 ) ) ;
#121 = DIRECTION ( 'NONE',  ( 0.000000000000000000, 0.000000000000000000, 1.000000000000000000 ) ) ;
#122 = VERTEX_POINT ( 'NONE', #31 ) ;
#123 = EDGE_CURVE ( 'NONE', #337, #228, #145, .T. ) ;
#124 = CARTESIAN_POINT ( 'NONE',  ( -0.1443375672974063217, -0.2499999999999999722, 0.1000000000000000056 ) ) ;
#125 = ORIENTED_EDGE ( 'NONE', *, *, #308, .T. ) ;
#126 = DIRECTION ( 'NONE',  ( -0.000000000000000000, -0.000000000000000000, -1.000000000000000000 ) ) ;
#127 = VECTOR ( 'NONE', #126, 39.37007874015748143 ) ;
#128 = ORIENTED_EDGE ( 'NONE', *, *, #246, .F. ) ;
#129 = DIRECTION ( 'NONE',  ( 1.000000000000000000, 0.000000000000000000, 0.000000000000000000 ) ) ;
#130 = PRODUCT_DEFINITION ( 'UNKNOWN', '', #318, #317 ) ;
#131 = APPLICATION_CONTEXT ( 'automotive_design' ) ;
#132 = ORIENTED_EDGE ( 'NONE', *, *, #189, .F. ) ;
#133 =( CONVERSION_BASED_UNIT ( 'INCH', #344 ) LENGTH_UNIT ( ) NAMED_UNIT ( #42 ) );
#134 = VECTOR ( 'NONE', #291, 39.37007874015748854 ) ;
#135 = ORIENTED_EDGE ( 'NONE', *, *, #298, .F. ) ;
#136 = PRESENTATION_LAYER_ASSIGNMENT (  '', '', ( #79 ) ) ;
#137 = ORIENTED_EDGE ( 'NONE', *, *, #340, .T. ) ;
#138 = SURFACE_SIDE_STYLE ('',( #212 ) ) ;
#139 = CYLINDRICAL_SURFACE ( 'NONE', #268, 0.3937007874015748254 ) ;
#140 = DIRECTION ( 'NONE',  ( 0.5000000000000002220, -0.8660254037844384856, 0.000000000000000000 ) ) ;
#141 = CIRCLE ( 'NONE', #27, 0.3937007874015748254 ) ;
#142 =( NAMED_UNIT ( * ) PLANE_ANGLE_UNIT ( ) SI_UNIT ( $, .RADIAN. ) );
#143 = CARTESIAN_POINT ( 'NONE',  ( -0.1443375672974064050, 0.2500000000000000555, 0.000000000000000000 ) ) ;
#144 = FACE_OUTER_BOUND ( 'NONE', #203, .T. ) ;
#145 = LINE ( 'NONE', #169, #309 ) ;
#146 = DIRECTION ( 'NONE',  ( -0.000000000000000000, -0.000000000000000000, -1.000000000000000000 ) ) ;
#147 = EDGE_CURVE ( 'NONE', #228, #48, #149, .T. ) ;
#148 = DIRECTION ( 'NONE',  ( 1.000000000000000000, 0.000000000000000000, -0.000000000000000000 ) ) ;
#149 = LINE ( 'NONE', #4, #38 ) ;
#150 = PRESENTATION_LAYER_ASSIGNMENT (  '', '', ( #113 ) ) ;
#151 = DIRECTION ( 'NONE',  ( 1.000000000000000000, 1.182924880895401264E-16, 0.000000000000000000 ) ) ;
#152 = ADVANCED_FACE ( 'NONE', ( #194 ), #221, .T. ) ;
#153 = SURFACE_SIDE_STYLE ('',( #232 ) ) ;
#154 = EDGE_LOOP ( 'NONE', ( #184, #18, #15, #338, #259, #257 ) ) ;
#155 = ORIENTED_EDGE ( 'NONE', *, *, #87, .T. ) ;
#156 = PLANE ( 'NONE',  #328 ) ;
#157 = EDGE_CURVE ( 'NONE', #22, #55, #141, .T. ) ;
#158 = ORIENTED_EDGE ( 'NONE', *, *, #123, .T. ) ;
#159 = CARTESIAN_POINT ( 'NONE',  ( 0.2886751345948129210, -3.392667169346791278E-17, 0.1000000000000000056 ) ) ;
#160 = ORIENTED_EDGE ( 'NONE', *, *, #87, .F. ) ;
#161 = FILL_AREA_STYLE ('',( #243 ) ) ;
#162 = ORIENTED_EDGE ( 'NONE', *, *, #288, .F. ) ;
#163 = FACE_OUTER_BOUND ( 'NONE', #310, .T. ) ;
#164 = EDGE_CURVE ( 'NONE', #337, #83, #332, .T. ) ;
#165 = ORIENTED_EDGE ( 'NONE', *, *, #246, .T. ) ;
#166 = VECTOR ( 'NONE', #84, 39.37007874015748143 ) ;
#167 = LINE ( 'NONE', #301, #209 ) ;
#168 = DIRECTION ( 'NONE',  ( -1.000000000000000000, 0.000000000000000000, 0.000000000000000000 ) ) ;
#169 = CARTESIAN_POINT ( 'NONE',  ( 0.1443375672974063217, 0.2500000000000000555, 0.1000000000000000056 ) ) ;
#170 = CIRCLE ( 'NONE', #68, 0.3937007874015748254 ) ;
#171 = DIRECTION ( 'NONE',  ( 1.000000000000000000, 0.000000000000000000, 0.000000000000000000 ) ) ;
#172 = PLANE ( 'NONE',  #240 ) ;
#173 = CARTESIAN_POINT ( 'NONE',  ( 0.000000000000000000, 0.000000000000000000, 0.1000000000000000056 ) ) ;
#174 = ADVANCED_FACE ( 'NONE', ( #3 ), #172, .T. ) ;
#175 = VECTOR ( 'NONE', #104, 39.37007874015749564 ) ;
#176 = CIRCLE ( 'NONE', #112, 0.3937007874015748254 ) ;
#177 = FILL_AREA_STYLE ('',( #37 ) ) ;
#178 = VERTEX_POINT ( 'NONE', #276 ) ;
#179 = FACE_BOUND ( 'NONE', #154, .T. ) ;
#180 = ORIENTED_EDGE ( 'NONE', *, *, #217, .F. ) ;
#181 = ORIENTED_EDGE ( 'NONE', *, *, #231, .F. ) ;
#182 = EDGE_CURVE ( 'NONE', #122, #54, #176, .T. ) ;
#183 = DIRECTION ( 'NONE',  ( -0.5000000000000002220, 0.8660254037844384856, 0.000000000000000000 ) ) ;
#184 = ORIENTED_EDGE ( 'NONE', *, *, #189, .T. ) ;
#185 = CARTESIAN_POINT ( 'NONE',  ( -0.1443375672974064050, 0.2500000000000000555, 0.1000000000000000056 ) ) ;
#186 = CARTESIAN_POINT ( 'NONE',  ( -0.1443375672974063217, -0.2499999999999999722, 0.1000000000000000056 ) ) ;
#187 = CARTESIAN_POINT ( 'NONE',  ( -0.1443375672974063217, -0.2499999999999999722, 0.1000000000000000056 ) ) ;
#188 = ORIENTED_EDGE ( 'NONE', *, *, #260, .F. ) ;
#189 = EDGE_CURVE ( 'NONE', #272, #319, #330, .T. ) ;
#190 = APPLICATION_PROTOCOL_DEFINITION ( 'draft international standard', 'automotive_design', 1998, #131 ) ;
#191 = ORIENTED_EDGE ( 'NONE', *, *, #304, .F. ) ;
#192 = CARTESIAN_POINT ( 'NONE',  ( 0.3937007874015748254, 4.821444091131312140E-17, 0.000000000000000000 ) ) ;
#193 = VECTOR ( 'NONE', #296, 39.37007874015748143 ) ;
#194 = FACE_OUTER_BOUND ( 'NONE', #342, .T. ) ;
#195 = CARTESIAN_POINT ( 'NONE',  ( 0.1443375672974063217, 0.2500000000000000555, 0.000000000000000000 ) ) ;
#196 = FACE_OUTER_BOUND ( 'NONE', #69, .T. ) ;
#197 = AXIS2_PLACEMENT_3D ( 'NONE', #245, #219, #129 ) ;
#198 = CARTESIAN_POINT ( 'NONE',  ( 0.000000000000000000, 0.000000000000000000, 0.1000000000000000056 ) ) ;
#199 = PRODUCT ( 'am-3948-100 500H x 100IN Spacer', 'am-3948-100 500H x 100IN Spacer', '', ( #323 ) ) ;
#200 = EDGE_CURVE ( 'NONE', #319, #228, #281, .T. ) ;
#201 = LINE ( 'NONE', #254, #283 ) ;
#202 =( NAMED_UNIT ( * ) SI_UNIT ( $, .STERADIAN. ) SOLID_ANGLE_UNIT ( ) );
#203 = EDGE_LOOP ( 'NONE', ( #10, #77 ) ) ;
#204 = MECHANICAL_DESIGN_GEOMETRIC_PRESENTATION_REPRESENTATION (  '', ( #79 ), #56 ) ;
#205 = ORIENTED_EDGE ( 'NONE', *, *, #217, .T. ) ;
#206 = ORIENTED_EDGE ( 'NONE', *, *, #308, .F. ) ;
#207 = ADVANCED_FACE ( 'NONE', ( #196 ), #59, .T. ) ;
#208 = ORIENTED_EDGE ( 'NONE', *, *, #82, .F. ) ;
#209 = VECTOR ( 'NONE', #30, 39.37007874015748143 ) ;
#210 = ORIENTED_EDGE ( 'NONE', *, *, #117, .F. ) ;
#211 = ADVANCED_FACE ( 'NONE', ( #144, #222 ), #351, .T. ) ;
#212 = SURFACE_STYLE_FILL_AREA ( #161 ) ;
#213 = CARTESIAN_POINT ( 'NONE',  ( 0.1443375672974065438, -0.2499999999999999167, 0.1000000000000000056 ) ) ;
#214 = CARTESIAN_POINT ( 'NONE',  ( -0.3937007874015748254, 0.000000000000000000, 0.000000000000000000 ) ) ;
#215 = ORIENTED_EDGE ( 'NONE', *, *, #304, .T. ) ;
#216 = ORIENTED_EDGE ( 'NONE', *, *, #19, .T. ) ;
#217 = EDGE_CURVE ( 'NONE', #266, #319, #201, .T. ) ;
#218 = ORIENTED_EDGE ( 'NONE', *, *, #298, .T. ) ;
#219 = DIRECTION ( 'NONE',  ( 0.000000000000000000, 0.000000000000000000, 1.000000000000000000 ) ) ;
#220 = CARTESIAN_POINT ( 'NONE',  ( -0.2886751345948128655, 6.809993419335529712E-17, 0.000000000000000000 ) ) ;
#221 = PLANE ( 'NONE',  #236 ) ;
#222 = FACE_BOUND ( 'NONE', #290, .T. ) ;
#223 = ADVANCED_FACE ( 'NONE', ( #5 ), #333, .T. ) ;
#224 = COLOUR_RGB ( '',0.2980392156862745057, 0.2980392156862745057, 0.2980392156862745057 ) ;
#225 = CARTESIAN_POINT ( 'NONE',  ( 0.1443375672974065438, -0.2499999999999999167, 0.1000000000000000056 ) ) ;
#226 = LINE ( 'NONE', #40, #33 ) ;
#227 = CARTESIAN_POINT ( 'NONE',  ( -0.1443375672974063217, -0.2499999999999999722, 0.000000000000000000 ) ) ;
#228 = VERTEX_POINT ( 'NONE', #195 ) ;
#229 = VECTOR ( 'NONE', #151, 39.37007874015748143 ) ;
#230 = DIRECTION ( 'NONE',  ( 1.000000000000000000, 0.000000000000000000, 0.000000000000000000 ) ) ;
#231 = EDGE_CURVE ( 'NONE', #349, #178, #167, .T. ) ;
#232 = SURFACE_STYLE_FILL_AREA ( #177 ) ;
#233 = DIRECTION ( 'NONE',  ( -0.5000000000000000000, -0.8660254037844385966, 0.000000000000000000 ) ) ;
#234 = CLOSED_SHELL ( 'NONE', ( #92, #211, #346, #207, #152, #74, #174, #223, #280, #14 ) ) ;
#235 =( NAMED_UNIT ( * ) SI_UNIT ( $, .STERADIAN. ) SOLID_ANGLE_UNIT ( ) );
#236 = AXIS2_PLACEMENT_3D ( 'NONE', #225, #251, #90 ) ;
#237 = ORIENTED_EDGE ( 'NONE', *, *, #157, .T. ) ;
#238 = DIRECTION ( 'NONE',  ( -1.000000000000000000, -1.182924880895401264E-16, 0.000000000000000000 ) ) ;
#239 = ORIENTED_EDGE ( 'NONE', *, *, #182, .F. ) ;
#240 = AXIS2_PLACEMENT_3D ( 'NONE', #62, #305, #114 ) ;
#241 = CARTESIAN_POINT ( 'NONE',  ( 0.000000000000000000, 0.000000000000000000, 0.1000000000000000056 ) ) ;
#242 = EDGE_CURVE ( 'NONE', #55, #22, #119, .T. ) ;
#243 = FILL_AREA_STYLE_COLOUR ( '', #303 ) ;
#244 = ORIENTED_EDGE ( 'NONE', *, *, #123, .F. ) ;
#245 = CARTESIAN_POINT ( 'NONE',  ( 0.000000000000000000, 0.000000000000000000, 0.000000000000000000 ) ) ;
#246 = EDGE_CURVE ( 'NONE', #266, #337, #226, .T. ) ;
#247 = DIRECTION ( 'NONE',  ( -1.000000000000000000, 0.000000000000000000, 0.000000000000000000 ) ) ;
#248 = AXIS2_PLACEMENT_3D ( 'NONE', #187, #294, #238 ) ;
#249 = VECTOR ( 'NONE', #35, 39.37007874015749564 ) ;
#250 = MANIFOLD_SOLID_BREP ( 'Boss-Extrude1', #234 ) ;
#251 = DIRECTION ( 'NONE',  ( -0.8660254037844387076, 0.4999999999999999445, 0.000000000000000000 ) ) ;
#252 = DIMENSIONAL_EXPONENTS ( 1.000000000000000000, 0.000000000000000000, 0.000000000000000000, 0.000000000000000000, 0.000000000000000000, 0.000000000000000000, 0.000000000000000000 ) ;
#253 = DIRECTION ( 'NONE',  ( 0.5000000000000002220, -0.8660254037844384856, 0.000000000000000000 ) ) ;
#254 = CARTESIAN_POINT ( 'NONE',  ( 0.2886751345948129210, -3.392667169346791278E-17, 0.1000000000000000056 ) ) ;
#255 = VECTOR ( 'NONE', #70, 39.37007874015748143 ) ;
#256 = CARTESIAN_POINT ( 'NONE',  ( -0.1443375672974064050, 0.2500000000000000555, 0.1000000000000000056 ) ) ;
#257 = ORIENTED_EDGE ( 'NONE', *, *, #260, .T. ) ;
#258 = DIRECTION ( 'NONE',  ( -0.5000000000000002220, 0.8660254037844384856, 0.000000000000000000 ) ) ;
#259 = ORIENTED_EDGE ( 'NONE', *, *, #117, .T. ) ;
#260 = EDGE_CURVE ( 'NONE', #327, #272, #289, .T. ) ;
#261 = CARTESIAN_POINT ( 'NONE',  ( 0.1443375672974065438, -0.2499999999999999167, 0.000000000000000000 ) ) ;
#262 = AXIS2_PLACEMENT_3D ( 'NONE', #111, #93, #58 ) ;
#263 = CARTESIAN_POINT ( 'NONE',  ( -0.2886751345948128655, 6.809993419335529712E-17, 0.1000000000000000056 ) ) ;
#264 = EDGE_LOOP ( 'NONE', ( #41, #244, #345, #218 ) ) ;
#265 = LINE ( 'NONE', #16, #51 ) ;
#266 = VERTEX_POINT ( 'NONE', #306 ) ;
#267 = LINE ( 'NONE', #320, #134 ) ;
#268 = AXIS2_PLACEMENT_3D ( 'NONE', #241, #60, #34 ) ;
#269 = VECTOR ( 'NONE', #39, 39.37007874015748143 ) ;
#270 = ORIENTED_EDGE ( 'NONE', *, *, #19, .F. ) ;
#271 = LENGTH_MEASURE_WITH_UNIT ( LENGTH_MEASURE( 0.02539999999999999897 ), #53 );
#272 = VERTEX_POINT ( 'NONE', #261 ) ;
#273 = EDGE_LOOP ( 'NONE', ( #208, #135, #215, #216 ) ) ;
#274 = DIRECTION ( 'NONE',  ( -1.000000000000000000, 0.000000000000000000, 0.000000000000000000 ) ) ;
#275 = DIRECTION ( 'NONE',  ( -0.000000000000000000, -0.000000000000000000, -1.000000000000000000 ) ) ;
#276 = CARTESIAN_POINT ( 'NONE',  ( 0.1443375672974065438, -0.2499999999999999167, 0.1000000000000000056 ) ) ;
#277 = CARTESIAN_POINT ( 'NONE',  ( 0.000000000000000000, 0.000000000000000000, 0.1000000000000000056 ) ) ;
#278 = PRODUCT_DEFINITION_SHAPE ( 'NONE', 'NONE',  #130 ) ;
#279 = DIMENSIONAL_EXPONENTS ( 1.000000000000000000, 0.000000000000000000, 0.000000000000000000, 0.000000000000000000, 0.000000000000000000, 0.000000000000000000, 0.000000000000000000 ) ;
#280 = ADVANCED_FACE ( 'NONE', ( #45 ), #156, .T. ) ;
#281 = LINE ( 'NONE', #120, #249 ) ;
#282 = DIRECTION ( 'NONE',  ( 0.4999999999999998890, 0.8660254037844385966, 0.000000000000000000 ) ) ;
#283 = VECTOR ( 'NONE', #146, 39.37007874015748143 ) ;
#284 = CARTESIAN_POINT ( 'NONE',  ( -0.3937007874015748254, 0.000000000000000000, 0.1000000000000000056 ) ) ;
#285 = ORIENTED_EDGE ( 'NONE', *, *, #157, .F. ) ;
#286 = PLANE ( 'NONE',  #312 ) ;
#287 = ORIENTED_EDGE ( 'NONE', *, *, #322, .T. ) ;
#288 = EDGE_CURVE ( 'NONE', #178, #266, #265, .T. ) ;
#289 = LINE ( 'NONE', #335, #229 ) ;
#290 = EDGE_LOOP ( 'NONE', ( #128, #162, #181, #160, #191, #103 ) ) ;
#291 = DIRECTION ( 'NONE',  ( -0.5000000000000000000, -0.8660254037844385966, 0.000000000000000000 ) ) ;
#292 = ADVANCED_BREP_SHAPE_REPRESENTATION ( 'am-3948-100 500H x 100IN Spacer', ( #250, #57 ), #107 ) ;
#293 = DIRECTION ( 'NONE',  ( 0.000000000000000000, 0.000000000000000000, 1.000000000000000000 ) ) ;
#294 = DIRECTION ( 'NONE',  ( -1.182924880895401264E-16, 1.000000000000000000, 0.000000000000000000 ) ) ;
#295 = SURFACE_STYLE_USAGE ( .BOTH. , #138 ) ;
#296 = DIRECTION ( 'NONE',  ( -0.000000000000000000, -0.000000000000000000, -1.000000000000000000 ) ) ;
#297 = FACE_OUTER_BOUND ( 'NONE', #100, .T. ) ;
#298 = EDGE_CURVE ( 'NONE', #83, #48, #7, .T. ) ;
#299 = PLANE ( 'NONE',  #85 ) ;
#300 = DIRECTION ( 'NONE',  ( 1.000000000000000000, 0.000000000000000000, 0.000000000000000000 ) ) ;
#301 = CARTESIAN_POINT ( 'NONE',  ( -0.1443375672974063217, -0.2499999999999999722, 0.1000000000000000056 ) ) ;
#302 = DIRECTION ( 'NONE',  ( 0.000000000000000000, 0.000000000000000000, 1.000000000000000000 ) ) ;
#303 = COLOUR_RGB ( '',0.2980392156862745057, 0.2980392156862745057, 0.2980392156862745057 ) ;
#304 = EDGE_CURVE ( 'NONE', #83, #43, #307, .T. ) ;
#305 = DIRECTION ( 'NONE',  ( 0.000000000000000000, -1.000000000000000000, 0.000000000000000000 ) ) ;
#306 = CARTESIAN_POINT ( 'NONE',  ( 0.2886751345948129210, -3.392667169346791278E-17, 0.1000000000000000056 ) ) ;
#307 = LINE ( 'NONE', #256, #96 ) ;
#308 = EDGE_CURVE ( 'NONE', #349, #327, #72, .T. ) ;
#309 = VECTOR ( 'NONE', #88, 39.37007874015748143 ) ;
#310 = EDGE_LOOP ( 'NONE', ( #348, #180, #165, #158 ) ) ;
#311 = MECHANICAL_DESIGN_GEOMETRIC_PRESENTATION_REPRESENTATION (  '', ( #113 ), #44 ) ;
#312 = AXIS2_PLACEMENT_3D ( 'NONE', #98, #293, #76 ) ;
#313 = LENGTH_MEASURE_WITH_UNIT ( LENGTH_MEASURE( 0.02539999999999999897 ), #13 );
#314 = CARTESIAN_POINT ( 'NONE',  ( 0.3937007874015748254, 4.821444091131312140E-17, 0.1000000000000000056 ) ) ;
#315 =( NAMED_UNIT ( * ) PLANE_ANGLE_UNIT ( ) SI_UNIT ( $, .RADIAN. ) );
#316 = ORIENTED_EDGE ( 'NONE', *, *, #334, .F. ) ;
#317 = PRODUCT_DEFINITION_CONTEXT ( 'detailed design', #73, 'design' ) ;
#318 = PRODUCT_DEFINITION_FORMATION_WITH_SPECIFIED_SOURCE ( 'ANY', '', #199, .NOT_KNOWN. ) ;
#319 = VERTEX_POINT ( 'NONE', #341 ) ;
#320 = CARTESIAN_POINT ( 'NONE',  ( -0.1443375672974064050, 0.2500000000000000555, 0.000000000000000000 ) ) ;
#321 = ORIENTED_EDGE ( 'NONE', *, *, #340, .F. ) ;
#322 = EDGE_CURVE ( 'NONE', #122, #55, #101, .T. ) ;
#323 = PRODUCT_CONTEXT ( 'NONE', #131, 'mechanical' ) ;
#324 = PLANE ( 'NONE',  #248 ) ;
#325 = DIRECTION ( 'NONE',  ( 1.000000000000000000, 0.000000000000000000, 0.000000000000000000 ) ) ;
#326 = ORIENTED_EDGE ( 'NONE', *, *, #242, .T. ) ;
#327 = VERTEX_POINT ( 'NONE', #227 ) ;
#328 = AXIS2_PLACEMENT_3D ( 'NONE', #263, #94, #258 ) ;
#329 = LINE ( 'NONE', #220, #66 ) ;
#330 = LINE ( 'NONE', #89, #61 ) ;
#331 = CARTESIAN_POINT ( 'NONE',  ( -0.2886751345948128655, 6.809993419335529712E-17, 0.000000000000000000 ) ) ;
#332 = LINE ( 'NONE', #2, #343 ) ;
#333 = PLANE ( 'NONE',  #262 ) ;
#334 = EDGE_CURVE ( 'NONE', #54, #122, #170, .T. ) ;
#335 = CARTESIAN_POINT ( 'NONE',  ( -0.1443375672974063217, -0.2499999999999999722, 0.000000000000000000 ) ) ;
#336 = LINE ( 'NONE', #284, #269 ) ;
#337 = VERTEX_POINT ( 'NONE', #67 ) ;
#338 = ORIENTED_EDGE ( 'NONE', *, *, #82, .T. ) ;
#339 = PRESENTATION_STYLE_ASSIGNMENT (( #12 ) ) ;
#340 = EDGE_CURVE ( 'NONE', #54, #22, #336, .T. ) ;
#341 = CARTESIAN_POINT ( 'NONE',  ( 0.2886751345948129210, -3.392667169346791278E-17, 0.000000000000000000 ) ) ;
#342 = EDGE_LOOP ( 'NONE', ( #132, #102, #46, #205 ) ) ;
#343 = VECTOR ( 'NONE', #168, 39.37007874015748143 ) ;
#344 = LENGTH_MEASURE_WITH_UNIT ( LENGTH_MEASURE( 0.02539999999999999897 ), #23 );
#345 = ORIENTED_EDGE ( 'NONE', *, *, #164, .T. ) ;
#346 = ADVANCED_FACE ( 'NONE', ( #95, #179 ), #286, .F. ) ;
#347 = CARTESIAN_POINT ( 'NONE',  ( -0.2886751345948128655, 6.809993419335529712E-17, 0.1000000000000000056 ) ) ;
#348 = ORIENTED_EDGE ( 'NONE', *, *, #200, .F. ) ;
#349 = VERTEX_POINT ( 'NONE', #186 ) ;
#350 = EDGE_LOOP ( 'NONE', ( #210, #270, #155, #125 ) ) ;
#351 = PLANE ( 'NONE',  #6 ) ;
ENDSEC;
END-ISO-10303-21;
